ISO-10303-21;
HEADER;
FILE_DESCRIPTION (( 'STEP AP214' ),
    '1' );
FILE_NAME ('4688.STEP',
    '2020-04-09T15:44:17',
    ( '.' ),
    ( '.' ),
    'SwSTEP 2.0',
    'SolidWorks 2001039',
    '' );
FILE_SCHEMA (( 'AUTOMOTIVE_DESIGN' ));
ENDSEC;

DATA;
#1 = EDGE_CURVE ( 'NONE', #246, #293, #10, .T. ) ;
#2 = CIRCLE ( 'NONE', #3, 40.00000000000000700 ) ;
#3 = AXIS2_PLACEMENT_3D ( 'NONE', #4, #5, #6 ) ;
#4 = CARTESIAN_POINT ( 'NONE',  ( 0.0000000000000000000, -25.01044340723454000, 0.0000000000000000000 ) ) ;
#5 = DIRECTION ( 'NONE',  ( -1.000000000000000000, -0.0000000000000000000, -0.0000000000000000000 ) ) ;
#6 = DIRECTION ( 'NONE',  ( 0.0000000000000000000, 0.0000000000000000000, 1.000000000000000000 ) ) ;
#7 = CARTESIAN_POINT ( 'NONE',  ( 0.0000000000000000000, -25.01044340723453600, -40.00000000000000700 ) ) ;
#8 = CARTESIAN_POINT ( 'NONE',  ( 3.000000000000005300, -25.01044340723453600, -40.00000000000000700 ) ) ;
#9 = CARTESIAN_POINT ( 'NONE',  ( 2.999999999999994700, -25.01044340723452900, -122.5000000000000100 ) ) ;
#10 = CIRCLE ( 'NONE', #11, 40.00000000000000700 ) ;
#11 = AXIS2_PLACEMENT_3D ( 'NONE', #12, #13, #14 ) ;
#12 = CARTESIAN_POINT ( 'NONE',  ( 3.000000000000005300, -25.01044340723454000, 0.0000000000000000000 ) ) ;
#13 = DIRECTION ( 'NONE',  ( -1.000000000000000000, -0.0000000000000000000, -0.0000000000000000000 ) ) ;
#14 = DIRECTION ( 'NONE',  ( 0.0000000000000000000, 0.0000000000000000000, 1.000000000000000000 ) ) ;
#15 = CARTESIAN_POINT ( 'NONE',  ( 33.00000000000000000, -25.01044340723454000, 127.5000000000000000 ) ) ;
#16 = FACE_OUTER_BOUND ( 'NONE', #278, .T. ) ;
#17 = FACE_BOUND ( 'NONE', #313, .T. ) ;
#18 = PLANE ( 'NONE',  #19 ) ;
#19 = AXIS2_PLACEMENT_3D ( 'NONE', #20, #21, #22 ) ;
#20 = CARTESIAN_POINT ( 'NONE',  ( 33.00000000000000000, 102.4895565927654500, 0.0000000000000000000 ) ) ;
#21 = DIRECTION ( 'NONE',  ( -1.000000000000000000, 0.0000000000000000000, -0.0000000000000000000 ) ) ;
#22 = DIRECTION ( 'NONE',  ( -0.0000000000000000000, 0.0000000000000000000, 1.000000000000000000 ) ) ;
#23 = LINE ( 'NONE', #24, #26 ) ;
#24 = CARTESIAN_POINT ( 'NONE',  ( -5.105031621589021500, -25.01044340723454000, 127.5000000000000000 ) ) ;
#25 = ORIENTED_EDGE ( 'NONE', *, *, #110, .T. ) ;
#26 = VECTOR ( 'NONE', #27, 1000.000000000000000 ) ;
#27 = DIRECTION ( 'NONE',  ( -1.000000000000000000, -0.0000000000000000000, -0.0000000000000000000 ) ) ;
#28 = CIRCLE ( 'NONE', #29, 127.5000000000000000 ) ;
#29 = AXIS2_PLACEMENT_3D ( 'NONE', #30, #31, #32 ) ;
#30 = CARTESIAN_POINT ( 'NONE',  ( 33.00000000000000000, -25.01044340723454000, 0.0000000000000000000 ) ) ;
#31 = DIRECTION ( 'NONE',  ( -1.000000000000000000, -0.0000000000000000000, -0.0000000000000000000 ) ) ;
#32 = DIRECTION ( 'NONE',  ( 0.0000000000000000000, 0.0000000000000000000, 1.000000000000000000 ) ) ;
#33 = CIRCLE ( 'NONE', #34, 40.00000000000000700 ) ;
#34 = AXIS2_PLACEMENT_3D ( 'NONE', #35, #36, #37 ) ;
#35 = CARTESIAN_POINT ( 'NONE',  ( 3.000000000000005300, -25.01044340723454000, 0.0000000000000000000 ) ) ;
#36 = DIRECTION ( 'NONE',  ( -1.000000000000000000, -0.0000000000000000000, -0.0000000000000000000 ) ) ;
#37 = DIRECTION ( 'NONE',  ( 0.0000000000000000000, 0.0000000000000000000, 1.000000000000000000 ) ) ;
#38 = FACE_OUTER_BOUND ( 'NONE', #324, .T. ) ;
#39 = FACE_BOUND ( 'NONE', #327, .T. ) ;
#40 = PLANE ( 'NONE',  #41 ) ;
#41 = AXIS2_PLACEMENT_3D ( 'NONE', #43, #44, #45 ) ;
#42 = EDGE_CURVE ( 'NONE', #293, #246, #33, .T. ) ;
#43 = CARTESIAN_POINT ( 'NONE',  ( 2.999999999999994200, 97.48955659276546700, 0.0000000000000000000 ) ) ;
#44 = DIRECTION ( 'NONE',  ( -1.000000000000000000, 0.0000000000000000000, -0.0000000000000000000 ) ) ;
#45 = DIRECTION ( 'NONE',  ( -0.0000000000000000000, 0.0000000000000000000, 1.000000000000000000 ) ) ;
#46 = CIRCLE ( 'NONE', #47, 122.5000000000000100 ) ;
#47 = AXIS2_PLACEMENT_3D ( 'NONE', #48, #49, #50 ) ;
#48 = CARTESIAN_POINT ( 'NONE',  ( 2.999999999999994700, -25.01044340723454000, 0.0000000000000000000 ) ) ;
#49 = DIRECTION ( 'NONE',  ( -1.000000000000000000, -0.0000000000000000000, -0.0000000000000000000 ) ) ;
#50 = DIRECTION ( 'NONE',  ( 0.0000000000000000000, 0.0000000000000000000, 1.000000000000000000 ) ) ;
#51 = CIRCLE ( 'NONE', #52, 122.5000000000000100 ) ;
#52 = AXIS2_PLACEMENT_3D ( 'NONE', #53, #54, #55 ) ;
#53 = CARTESIAN_POINT ( 'NONE',  ( 33.00000000000000000, -25.01044340723454000, 0.0000000000000000000 ) ) ;
#54 = DIRECTION ( 'NONE',  ( -1.000000000000000000, -0.0000000000000000000, -0.0000000000000000000 ) ) ;
#55 = DIRECTION ( 'NONE',  ( 0.0000000000000000000, 0.0000000000000000000, 1.000000000000000000 ) ) ;
#56 = CARTESIAN_POINT ( 'NONE',  ( 0.0000000000000000000, -25.01044340723454000, 127.5000000000000000 ) ) ;
#57 = LINE ( 'NONE', #58, #59 ) ;
#58 = CARTESIAN_POINT ( 'NONE',  ( -5.105031621589021500, -25.01044340723454000, 122.5000000000000100 ) ) ;
#59 = VECTOR ( 'NONE', #60, 1000.000000000000000 ) ;
#60 = DIRECTION ( 'NONE',  ( -1.000000000000000000, -0.0000000000000000000, -0.0000000000000000000 ) ) ;
#61 = LINE ( 'NONE', #62, #63 ) ;
#62 = CARTESIAN_POINT ( 'NONE',  ( -5.105031621589021500, -25.01044340723452600, -127.5000000000000000 ) ) ;
#63 = VECTOR ( 'NONE', #64, 1000.000000000000000 ) ;
#64 = DIRECTION ( 'NONE',  ( -1.000000000000000000, -0.0000000000000000000, -0.0000000000000000000 ) ) ;
#65 = FACE_OUTER_BOUND ( 'NONE', #163, .T. ) ;
#66 = CYLINDRICAL_SURFACE ( 'NONE', #67, 127.5000000000000000 ) ;
#67 = AXIS2_PLACEMENT_3D ( 'NONE', #68, #69, #70 ) ;
#68 = CARTESIAN_POINT ( 'NONE',  ( -5.105031621589021500, -25.01044340723454000, 0.0000000000000000000 ) ) ;
#69 = DIRECTION ( 'NONE',  ( -1.000000000000000000, -0.0000000000000000000, -0.0000000000000000000 ) ) ;
#70 = DIRECTION ( 'NONE',  ( 0.0000000000000000000, 0.0000000000000000000, 1.000000000000000000 ) ) ;
#71 = CARTESIAN_POINT ( 'NONE',  ( 33.00000000000000000, -25.01044340723452900, -122.5000000000000100 ) ) ;
#72 = CARTESIAN_POINT ( 'NONE',  ( 33.00000000000000000, -25.01044340723454000, 122.5000000000000100 ) ) ;
#73 = LINE ( 'NONE', #74, #76 ) ;
#74 = CARTESIAN_POINT ( 'NONE',  ( -5.105031621589021500, -25.01044340723454000, 40.00000000000000700 ) ) ;
#75 = ADVANCED_FACE ( 'NONE', ( #38, #39 ), #40, .F. ) ;
#76 = VECTOR ( 'NONE', #77, 1000.000000000000000 ) ;
#77 = DIRECTION ( 'NONE',  ( -1.000000000000000000, -0.0000000000000000000, -0.0000000000000000000 ) ) ;
#78 = LINE ( 'NONE', #79, #80 ) ;
#79 = CARTESIAN_POINT ( 'NONE',  ( -5.105031621589021500, -25.01044340723452900, -122.5000000000000100 ) ) ;
#80 = VECTOR ( 'NONE', #81, 1000.000000000000000 ) ;
#81 = DIRECTION ( 'NONE',  ( -1.000000000000000000, -0.0000000000000000000, -0.0000000000000000000 ) ) ;
#82 = CARTESIAN_POINT ( 'NONE',  ( 33.00000000000000000, -25.01044340723452600, -127.5000000000000000 ) ) ;
#83 = COLOUR_RGB ( '',0.9411764705882352800, 0.6745098039215686700, 0.1176470588235294100 ) ;
#84 = FILL_AREA_STYLE_COLOUR ( '', #83 ) ;
#85 = FILL_AREA_STYLE ('',( #84 ) ) ;
#86 = SURFACE_STYLE_FILL_AREA ( #85 ) ;
#87 = SURFACE_SIDE_STYLE ('',( #86 ) ) ;
#88 = SURFACE_STYLE_USAGE (.BOTH., #87 ) ;
#89 = PRESENTATION_STYLE_ASSIGNMENT (( #88 ) ) ;
#90 = STYLED_ITEM ('',( #89 ), #245 ) ;
#91 = CARTESIAN_POINT ( 'NONE',  ( 3.000000000000005300, -25.01044340723454000, 40.00000000000000700 ) ) ;
#92 = EDGE_CURVE ( 'NONE', #164, #129, #51, .T. ) ;
#93 = CIRCLE ( 'NONE', #94, 40.00000000000000700 ) ;
#94 = AXIS2_PLACEMENT_3D ( 'NONE', #95, #96, #97 ) ;
#95 = CARTESIAN_POINT ( 'NONE',  ( 0.0000000000000000000, -25.01044340723454000, 0.0000000000000000000 ) ) ;
#96 = DIRECTION ( 'NONE',  ( -1.000000000000000000, -0.0000000000000000000, -0.0000000000000000000 ) ) ;
#97 = DIRECTION ( 'NONE',  ( 0.0000000000000000000, 0.0000000000000000000, 1.000000000000000000 ) ) ;
#98 = FACE_OUTER_BOUND ( 'NONE', #292, .T. ) ;
#99 = CYLINDRICAL_SURFACE ( 'NONE', #100, 127.5000000000000000 ) ;
#100 = AXIS2_PLACEMENT_3D ( 'NONE', #101, #102, #103 ) ;
#101 = CARTESIAN_POINT ( 'NONE',  ( -5.105031621589021500, -25.01044340723454000, 0.0000000000000000000 ) ) ;
#102 = DIRECTION ( 'NONE',  ( -1.000000000000000000, -0.0000000000000000000, -0.0000000000000000000 ) ) ;
#103 = DIRECTION ( 'NONE',  ( 0.0000000000000000000, 0.0000000000000000000, 1.000000000000000000 ) ) ;
#104 = FACE_OUTER_BOUND ( 'NONE', #318, .T. ) ;
#105 = CYLINDRICAL_SURFACE ( 'NONE', #106, 40.00000000000000700 ) ;
#106 = AXIS2_PLACEMENT_3D ( 'NONE', #107, #108, #113 ) ;
#107 = CARTESIAN_POINT ( 'NONE',  ( -5.105031621589021500, -25.01044340723454000, 0.0000000000000000000 ) ) ;
#108 = DIRECTION ( 'NONE',  ( -1.000000000000000000, -0.0000000000000000000, -0.0000000000000000000 ) ) ;
#109 = EDGE_LOOP ( 'NONE', ( #325, #130, #277, #300 ) ) ;
#110 = EDGE_CURVE ( 'NONE', #212, #286, #61, .T. ) ;
#111 = ADVANCED_FACE ( 'NONE', ( #65 ), #66, .T. ) ;
#112 = ORIENTED_EDGE ( 'NONE', *, *, #276, .T. ) ;
#113 = DIRECTION ( 'NONE',  ( 0.0000000000000000000, 0.0000000000000000000, 1.000000000000000000 ) ) ;
#114 = CIRCLE ( 'NONE', #115, 127.5000000000000000 ) ;
#115 = AXIS2_PLACEMENT_3D ( 'NONE', #116, #117, #118 ) ;
#116 = CARTESIAN_POINT ( 'NONE',  ( 0.0000000000000000000, -25.01044340723454000, 0.0000000000000000000 ) ) ;
#117 = DIRECTION ( 'NONE',  ( -1.000000000000000000, -0.0000000000000000000, -0.0000000000000000000 ) ) ;
#118 = DIRECTION ( 'NONE',  ( 0.0000000000000000000, 0.0000000000000000000, 1.000000000000000000 ) ) ;
#119 = LINE ( 'NONE', #120, #121 ) ;
#120 = CARTESIAN_POINT ( 'NONE',  ( -5.105031621589021500, -25.01044340723453600, -40.00000000000000700 ) ) ;
#121 = VECTOR ( 'NONE', #122, 1000.000000000000000 ) ;
#122 = DIRECTION ( 'NONE',  ( -1.000000000000000000, -0.0000000000000000000, -0.0000000000000000000 ) ) ;
#123 = CARTESIAN_POINT ( 'NONE',  ( 2.999999999999994700, -25.01044340723454000, 122.5000000000000100 ) ) ;
#124 = FACE_OUTER_BOUND ( 'NONE', #310, .T. ) ;
#125 = CYLINDRICAL_SURFACE ( 'NONE', #126, 122.5000000000000100 ) ;
#126 = AXIS2_PLACEMENT_3D ( 'NONE', #127, #128, #131 ) ;
#127 = CARTESIAN_POINT ( 'NONE',  ( -5.105031621589021500, -25.01044340723454000, 0.0000000000000000000 ) ) ;
#128 = DIRECTION ( 'NONE',  ( -1.000000000000000000, -0.0000000000000000000, -0.0000000000000000000 ) ) ;
#129 = VERTEX_POINT ( 'NONE', #71 ) ;
#130 = ORIENTED_EDGE ( 'NONE', *, *, #195, .T. ) ;
#131 = DIRECTION ( 'NONE',  ( 0.0000000000000000000, 0.0000000000000000000, 1.000000000000000000 ) ) ;
#132 = CIRCLE ( 'NONE', #133, 127.5000000000000000 ) ;
#133 = AXIS2_PLACEMENT_3D ( 'NONE', #134, #135, #136 ) ;
#134 = CARTESIAN_POINT ( 'NONE',  ( 0.0000000000000000000, -25.01044340723454000, 0.0000000000000000000 ) ) ;
#135 = DIRECTION ( 'NONE',  ( -1.000000000000000000, -0.0000000000000000000, -0.0000000000000000000 ) ) ;
#136 = DIRECTION ( 'NONE',  ( 0.0000000000000000000, 0.0000000000000000000, 1.000000000000000000 ) ) ;
#137 = FACE_BOUND ( 'NONE', #282, .T. ) ;
#138 = FACE_OUTER_BOUND ( 'NONE', #273, .T. ) ;
#139 = PLANE ( 'NONE',  #140 ) ;
#140 = AXIS2_PLACEMENT_3D ( 'NONE', #141, #142, #143 ) ;
#141 = CARTESIAN_POINT ( 'NONE',  ( 0.0000000000000000000, 14.98955659276546400, 0.0000000000000000000 ) ) ;
#142 = DIRECTION ( 'NONE',  ( 1.000000000000000000, 0.0000000000000000000, 0.0000000000000000000 ) ) ;
#143 = DIRECTION ( 'NONE',  ( 0.0000000000000000000, 0.0000000000000000000, -1.000000000000000000 ) ) ;
#144 = CIRCLE ( 'NONE', #145, 127.5000000000000000 ) ;
#145 = AXIS2_PLACEMENT_3D ( 'NONE', #146, #147, #148 ) ;
#146 = CARTESIAN_POINT ( 'NONE',  ( 33.00000000000000000, -25.01044340723454000, 0.0000000000000000000 ) ) ;
#147 = DIRECTION ( 'NONE',  ( -1.000000000000000000, -0.0000000000000000000, -0.0000000000000000000 ) ) ;
#148 = DIRECTION ( 'NONE',  ( 0.0000000000000000000, 0.0000000000000000000, 1.000000000000000000 ) ) ;
#149 = FACE_OUTER_BOUND ( 'NONE', #333, .T. ) ;
#150 = CYLINDRICAL_SURFACE ( 'NONE', #151, 40.00000000000000700 ) ;
#151 = AXIS2_PLACEMENT_3D ( 'NONE', #152, #153, #154 ) ;
#152 = CARTESIAN_POINT ( 'NONE',  ( -5.105031621589021500, -25.01044340723454000, 0.0000000000000000000 ) ) ;
#153 = DIRECTION ( 'NONE',  ( -1.000000000000000000, -0.0000000000000000000, -0.0000000000000000000 ) ) ;
#154 = DIRECTION ( 'NONE',  ( 0.0000000000000000000, 0.0000000000000000000, 1.000000000000000000 ) ) ;
#155 = CIRCLE ( 'NONE', #156, 122.5000000000000100 ) ;
#156 = AXIS2_PLACEMENT_3D ( 'NONE', #157, #158, #159 ) ;
#157 = CARTESIAN_POINT ( 'NONE',  ( 33.00000000000000000, -25.01044340723454000, 0.0000000000000000000 ) ) ;
#158 = DIRECTION ( 'NONE',  ( -1.000000000000000000, -0.0000000000000000000, -0.0000000000000000000 ) ) ;
#159 = DIRECTION ( 'NONE',  ( 0.0000000000000000000, 0.0000000000000000000, 1.000000000000000000 ) ) ;
#160 = CARTESIAN_POINT ( 'NONE',  ( 0.0000000000000000000, -25.01044340723454000, 40.00000000000000700 ) ) ;
#161 = CIRCLE ( 'NONE', #162, 122.5000000000000100 ) ;
#162 = AXIS2_PLACEMENT_3D ( 'NONE', #166, #167, #168 ) ;
#163 = EDGE_LOOP ( 'NONE', ( #316, #25, #265, #288 ) ) ;
#164 = VERTEX_POINT ( 'NONE', #72 ) ;
#165 = ORIENTED_EDGE ( 'NONE', *, *, #329, .T. ) ;
#166 = CARTESIAN_POINT ( 'NONE',  ( 2.999999999999994700, -25.01044340723454000, 0.0000000000000000000 ) ) ;
#167 = DIRECTION ( 'NONE',  ( -1.000000000000000000, -0.0000000000000000000, -0.0000000000000000000 ) ) ;
#168 = DIRECTION ( 'NONE',  ( 0.0000000000000000000, 0.0000000000000000000, 1.000000000000000000 ) ) ;
#169 = FACE_OUTER_BOUND ( 'NONE', #109, .T. ) ;
#170 = CYLINDRICAL_SURFACE ( 'NONE', #171, 122.5000000000000100 ) ;
#171 = AXIS2_PLACEMENT_3D ( 'NONE', #172, #173, #174 ) ;
#172 = CARTESIAN_POINT ( 'NONE',  ( -5.105031621589021500, -25.01044340723454000, 0.0000000000000000000 ) ) ;
#173 = DIRECTION ( 'NONE',  ( -1.000000000000000000, -0.0000000000000000000, -0.0000000000000000000 ) ) ;
#174 = DIRECTION ( 'NONE',  ( 0.0000000000000000000, 0.0000000000000000000, 1.000000000000000000 ) ) ;
#175 = CARTESIAN_POINT ( 'NONE',  ( 0.0000000000000000000, -25.01044340723452600, -127.5000000000000000 ) ) ;
#176 =( LENGTH_UNIT ( ) NAMED_UNIT ( * ) SI_UNIT ( .MILLI., .METRE. ) );
#177 =( NAMED_UNIT ( * ) PLANE_ANGLE_UNIT ( ) SI_UNIT ( $, .RADIAN. ) );
#178 =( NAMED_UNIT ( * ) SI_UNIT ( $, .STERADIAN. ) SOLID_ANGLE_UNIT ( ) );
#179 = UNCERTAINTY_MEASURE_WITH_UNIT (LENGTH_MEASURE( 1.000000000000000100E-005 ), #176, 'NONE', 'NONE');
#180 =( GEOMETRIC_REPRESENTATION_CONTEXT ( 3 ) GLOBAL_UNCERTAINTY_ASSIGNED_CONTEXT ( ( #179 ) ) GLOBAL_UNIT_ASSIGNED_CONTEXT ( ( #176, #177, #178 ) ) REPRESENTATION_CONTEXT ( 'NONE', 'WORKASPACE' ) );
#181 = ADVANCED_BREP_SHAPE_REPRESENTATION ( '4688', ( #245, #183 ), #180 ) ;
#182 = ORIENTED_EDGE ( 'NONE', *, *, #266, .T. ) ;
#183 = AXIS2_PLACEMENT_3D ( 'NONE', #184, #185, #186 ) ;
#184 = CARTESIAN_POINT ( 'NONE',  ( 0.0000000000000000000, 0.0000000000000000000, 0.0000000000000000000 ) ) ;
#185 = DIRECTION ( 'NONE',  ( 0.0000000000000000000, 0.0000000000000000000, 1.000000000000000000 ) ) ;
#186 = DIRECTION ( 'NONE',  ( 1.000000000000000000, 0.0000000000000000000, 0.0000000000000000000 ) ) ;
#187 = APPLICATION_CONTEXT ( 'automotive_design' ) ;
#188 = APPLICATION_PROTOCOL_DEFINITION ( 'draft international standard', 'automotive_design', 1998, #187 ) ;
#189 = PRODUCT_CONTEXT ( 'NONE', #187, 'mechanical' ) ;
#190 = PRODUCT ( '2', '4688', '', ( #189 ) ) ;
#191 = PERSON ( 'UNSPECIFIED', 'UNSPECIFIED', 'UNSPECIFIED', ('UNSPECIFIED'), ('UNSPECIFIED'), ('UNSPECIFIED') ) ;
#192 = ORGANIZATION ( 'UNSPECIFIED', 'UNSPECIFIED', '' ) ;
#193 = PERSON_AND_ORGANIZATION ( #191, #192 ) ;
#194 = PERSON_AND_ORGANIZATION_ROLE ( 'design_owner' ) ;
#195 = EDGE_CURVE ( 'NONE', #129, #336, #78, .T. ) ;
#196 = APPLIED_PERSON_AND_ORGANIZATION_ASSIGNMENT ( #193, #194, ( #190 ) ) ;
#197 = APPLICATION_CONTEXT ( 'automotive_design' ) ;
#198 = APPLICATION_PROTOCOL_DEFINITION ( 'draft international standard', 'automotive_design', 1998, #197 ) ;
#199 = PRODUCT_DEFINITION_CONTEXT ( 'detailed design', #197, 'design' ) ;
#200 = PRODUCT_DEFINITION ( 'UNKNOWN', '', #232, #199 ) ;
#201 = PERSON_AND_ORGANIZATION ( #191, #192 ) ;
#202 = APPROVAL_STATUS ( 'not_yet_approved' ) ;
#203 = APPROVAL ( #202, 'UNSPECIFIED' ) ;
#204 = APPROVAL_ROLE ( '' ) ;
#205 = APPROVAL_PERSON_ORGANIZATION ( #201, #203, #204 ) ;
#206 = COORDINATED_UNIVERSAL_TIME_OFFSET ( 1, 0, .AHEAD. ) ;
#207 = LOCAL_TIME ( 17, 44, 17.00000000000000000, #206 ) ;
#208 = CALENDAR_DATE ( 2020, 9, 4 ) ;
#209 = DATE_AND_TIME ( #208, #207 ) ;
#210 = APPROVAL_DATE_TIME ( #209, #203 ) ;
#211 = APPLIED_APPROVAL_ASSIGNMENT ( #203, ( #200 ) ) ;
#212 = VERTEX_POINT ( 'NONE', #82 ) ;
#213 = PERSON_AND_ORGANIZATION ( #191, #192 ) ;
#214 = PERSON_AND_ORGANIZATION_ROLE ( 'creator' ) ;
#215 = APPLIED_PERSON_AND_ORGANIZATION_ASSIGNMENT ( #213, #214, ( #200 ) ) ;
#216 = COORDINATED_UNIVERSAL_TIME_OFFSET ( 1, 0, .AHEAD. ) ;
#217 = LOCAL_TIME ( 17, 44, 17.00000000000000000, #216 ) ;
#218 = CALENDAR_DATE ( 2020, 9, 4 ) ;
#219 = DATE_AND_TIME ( #218, #217 ) ;
#220 = DATE_TIME_ROLE ( 'creation_date' ) ;
#221 = APPLIED_DATE_AND_TIME_ASSIGNMENT ( #219, #220, ( #200 ) ) ;
#222 = PERSON_AND_ORGANIZATION ( #191, #192 ) ;
#223 = APPROVAL_STATUS ( 'not_yet_approved' ) ;
#224 = APPROVAL ( #223, 'UNSPECIFIED' ) ;
#225 = APPROVAL_ROLE ( '' ) ;
#226 = APPROVAL_PERSON_ORGANIZATION ( #222, #224, #225 ) ;
#227 = COORDINATED_UNIVERSAL_TIME_OFFSET ( 1, 0, .AHEAD. ) ;
#228 = LOCAL_TIME ( 17, 44, 17.00000000000000000, #227 ) ;
#229 = CALENDAR_DATE ( 2020, 9, 4 ) ;
#230 = DATE_AND_TIME ( #229, #228 ) ;
#231 = APPROVAL_DATE_TIME ( #230, #224 ) ;
#232 = PRODUCT_DEFINITION_FORMATION_WITH_SPECIFIED_SOURCE ( 'ANY', '', #190, .NOT_KNOWN. ) ;
#233 = APPLIED_APPROVAL_ASSIGNMENT ( #224, ( #232 ) ) ;
#234 = PERSON_AND_ORGANIZATION ( #191, #192 ) ;
#235 = PERSON_AND_ORGANIZATION_ROLE ( 'creator' ) ;
#236 = APPLIED_PERSON_AND_ORGANIZATION_ASSIGNMENT ( #234, #235, ( #232 ) ) ;
#237 = PERSON_AND_ORGANIZATION ( #191, #192 ) ;
#238 = PERSON_AND_ORGANIZATION_ROLE ( 'design_supplier' ) ;
#239 = APPLIED_PERSON_AND_ORGANIZATION_ASSIGNMENT ( #237, #238, ( #232 ) ) ;
#240 = SECURITY_CLASSIFICATION_LEVEL ( 'unclassified' ) ;
#241 = SECURITY_CLASSIFICATION ( '', '', #240 ) ;
#242 = PERSON_AND_ORGANIZATION ( #191, #192 ) ;
#243 = PERSON_AND_ORGANIZATION_ROLE ( 'classification_officer' ) ;
#244 = APPLIED_PERSON_AND_ORGANIZATION_ASSIGNMENT ( #242, #243, ( #241 ) ) ;
#245 = MANIFOLD_SOLID_BREP ( 'NONE', #275 ) ;
#246 = VERTEX_POINT ( 'NONE', #91 ) ;
#247 = ADVANCED_FACE ( 'NONE', ( #98 ), #99, .T. ) ;
#248 = COORDINATED_UNIVERSAL_TIME_OFFSET ( 1, 0, .AHEAD. ) ;
#249 = LOCAL_TIME ( 17, 44, 17.00000000000000000, #248 ) ;
#250 = CALENDAR_DATE ( 2020, 9, 4 ) ;
#251 = DATE_AND_TIME ( #250, #249 ) ;
#252 = DATE_TIME_ROLE ( 'classification_date' ) ;
#253 = APPLIED_DATE_AND_TIME_ASSIGNMENT ( #251, #252, ( #241 ) ) ;
#254 = PERSON_AND_ORGANIZATION ( #191, #192 ) ;
#255 = APPROVAL_STATUS ( 'not_yet_approved' ) ;
#256 = APPROVAL ( #255, 'UNSPECIFIED' ) ;
#257 = APPROVAL_ROLE ( '' ) ;
#258 = APPROVAL_PERSON_ORGANIZATION ( #254, #256, #257 ) ;
#259 = COORDINATED_UNIVERSAL_TIME_OFFSET ( 1, 0, .AHEAD. ) ;
#260 = LOCAL_TIME ( 17, 44, 17.00000000000000000, #259 ) ;
#261 = CALENDAR_DATE ( 2020, 9, 4 ) ;
#262 = DATE_AND_TIME ( #261, #260 ) ;
#263 = APPROVAL_DATE_TIME ( #262, #256 ) ;
#264 = ADVANCED_FACE ( 'NONE', ( #104 ), #105, .F. ) ;
#265 = ORIENTED_EDGE ( 'NONE', *, *, #276, .F. ) ;
#266 = EDGE_CURVE ( 'NONE', #286, #305, #114, .T. ) ;
#267 = APPLIED_APPROVAL_ASSIGNMENT ( #256, ( #241 ) ) ;
#268 = APPLIED_SECURITY_CLASSIFICATION_ASSIGNMENT ( #241, ( #232 ) ) ;
#269 = PRODUCT_RELATED_PRODUCT_CATEGORY ( 'detail', '', ( #190 ) ) ;
#270 = PRODUCT_DEFINITION_SHAPE ( 'NONE', 'NONE',  #200 ) ;
#271 = SHAPE_DEFINITION_REPRESENTATION ( #270, #181 ) ;
#272 = EDGE_CURVE ( 'NONE', #293, #291, #119, .T. ) ;
#273 = EDGE_LOOP ( 'NONE', ( #112, #182 ) ) ;
#274 = ORIENTED_EDGE ( 'NONE', *, *, #195, .F. ) ;
#275 = CLOSED_SHELL ( 'NONE', ( #319, #75, #332, #296, #264, #279, #111, #247, #322 ) ) ;
#276 = EDGE_CURVE ( 'NONE', #305, #286, #132, .T. ) ;
#277 = ORIENTED_EDGE ( 'NONE', *, *, #285, .T. ) ;
#278 = EDGE_LOOP ( 'NONE', ( #323, #328 ) ) ;
#279 = ADVANCED_FACE ( 'NONE', ( #149 ), #150, .F. ) ;
#280 = ORIENTED_EDGE ( 'NONE', *, *, #42, .T. ) ;
#281 = ORIENTED_EDGE ( 'NONE', *, *, #92, .F. ) ;
#282 = EDGE_LOOP ( 'NONE', ( #308, #321 ) ) ;
#283 = ORIENTED_EDGE ( 'NONE', *, *, #110, .F. ) ;
#284 = ORIENTED_EDGE ( 'NONE', *, *, #290, .T. ) ;
#285 = EDGE_CURVE ( 'NONE', #336, #317, #161, .T. ) ;
#286 = VERTEX_POINT ( 'NONE', #175 ) ;
#287 = ORIENTED_EDGE ( 'NONE', *, *, #306, .T. ) ;
#288 = ORIENTED_EDGE ( 'NONE', *, *, #298, .F. ) ;
#289 = ORIENTED_EDGE ( 'NONE', *, *, #299, .T. ) ;
#290 = EDGE_CURVE ( 'NONE', #291, #330, #2, .T. ) ;
#291 = VERTEX_POINT ( 'NONE', #7 ) ;
#292 = EDGE_LOOP ( 'NONE', ( #283, #289, #303, #309 ) ) ;
#293 = VERTEX_POINT ( 'NONE', #8 ) ;
#294 = VERTEX_POINT ( 'NONE', #15 ) ;
#295 = ORIENTED_EDGE ( 'NONE', *, *, #272, .F. ) ;
#296 = ADVANCED_FACE ( 'NONE', ( #16, #17 ), #18, .F. ) ;
#297 = ORIENTED_EDGE ( 'NONE', *, *, #301, .T. ) ;
#298 = EDGE_CURVE ( 'NONE', #294, #305, #23, .T. ) ;
#299 = EDGE_CURVE ( 'NONE', #212, #294, #28, .T. ) ;
#300 = ORIENTED_EDGE ( 'NONE', *, *, #306, .F. ) ;
#301 = EDGE_CURVE ( 'NONE', #317, #336, #46, .T. ) ;
#302 = ORIENTED_EDGE ( 'NONE', *, *, #1, .F. ) ;
#303 = ORIENTED_EDGE ( 'NONE', *, *, #298, .T. ) ;
#304 = ORIENTED_EDGE ( 'NONE', *, *, #311, .F. ) ;
#305 = VERTEX_POINT ( 'NONE', #56 ) ;
#306 = EDGE_CURVE ( 'NONE', #164, #317, #57, .T. ) ;
#307 = ORIENTED_EDGE ( 'NONE', *, *, #311, .T. ) ;
#308 = ORIENTED_EDGE ( 'NONE', *, *, #315, .F. ) ;
#309 = ORIENTED_EDGE ( 'NONE', *, *, #266, .F. ) ;
#310 = EDGE_LOOP ( 'NONE', ( #274, #281, #287, #297 ) ) ;
#311 = EDGE_CURVE ( 'NONE', #246, #330, #73, .T. ) ;
#312 = ORIENTED_EDGE ( 'NONE', *, *, #301, .F. ) ;
#313 = EDGE_LOOP ( 'NONE', ( #337, #165 ) ) ;
#314 = ORIENTED_EDGE ( 'NONE', *, *, #315, .T. ) ;
#315 = EDGE_CURVE ( 'NONE', #330, #291, #93, .T. ) ;
#316 = ORIENTED_EDGE ( 'NONE', *, *, #326, .T. ) ;
#317 = VERTEX_POINT ( 'NONE', #123 ) ;
#318 = EDGE_LOOP ( 'NONE', ( #335, #331, #284, #304 ) ) ;
#319 = ADVANCED_FACE ( 'NONE', ( #124 ), #125, .F. ) ;
#320 = ORIENTED_EDGE ( 'NONE', *, *, #285, .F. ) ;
#321 = ORIENTED_EDGE ( 'NONE', *, *, #290, .F. ) ;
#322 = ADVANCED_FACE ( 'NONE', ( #137, #138 ), #139, .F. ) ;
#323 = ORIENTED_EDGE ( 'NONE', *, *, #326, .F. ) ;
#324 = EDGE_LOOP ( 'NONE', ( #312, #320 ) ) ;
#325 = ORIENTED_EDGE ( 'NONE', *, *, #329, .F. ) ;
#326 = EDGE_CURVE ( 'NONE', #294, #212, #144, .T. ) ;
#327 = EDGE_LOOP ( 'NONE', ( #334, #280 ) ) ;
#328 = ORIENTED_EDGE ( 'NONE', *, *, #299, .F. ) ;
#329 = EDGE_CURVE ( 'NONE', #129, #164, #155, .T. ) ;
#330 = VERTEX_POINT ( 'NONE', #160 ) ;
#331 = ORIENTED_EDGE ( 'NONE', *, *, #272, .T. ) ;
#332 = ADVANCED_FACE ( 'NONE', ( #169 ), #170, .F. ) ;
#333 = EDGE_LOOP ( 'NONE', ( #295, #302, #307, #314 ) ) ;
#334 = ORIENTED_EDGE ( 'NONE', *, *, #1, .T. ) ;
#335 = ORIENTED_EDGE ( 'NONE', *, *, #42, .F. ) ;
#336 = VERTEX_POINT ( 'NONE', #9 ) ;
#337 = ORIENTED_EDGE ( 'NONE', *, *, #92, .T. ) ;
ENDSEC;
END-ISO-10303-21;
